ISO-10303-21;
HEADER;
FILE_DESCRIPTION(('CATIA V5 STEP Exchange'),'2;1');

FILE_NAME('\\\\stisrv.epfl.ch\\sti-sgm\\sgm-ens\\soubiell\\Enseignement\\ME-101-106 - Construction M\X2\00E9\X0\canique I\\1. Supports de cours\\SW2\\Fichiers sources et illustrations\\PIECE A.stp','2023-10-16T12:18:10+00:00',('none'),('none'),'CATIA Unofficial Packaging Version SP3','CATIA V5 STEP AP203','none');

FILE_SCHEMA(('CONFIG_CONTROL_DESIGN'));

ENDSEC;
DATA;
#5=PRODUCT('PIECE A','','',(#2)) ;
#1=APPLICATION_CONTEXT('configuration controlled 3D design of mechanical parts and assemblies') ;
#14=PRODUCT_DEFINITION('',' ',#6,#3) ;
#16=SECURITY_CLASSIFICATION(' ',' ',#15) ;
#15=SECURITY_CLASSIFICATION_LEVEL('unclassified') ;
#46=CARTESIAN_POINT(' ',(0.,0.,0.)) ;
#51=CARTESIAN_POINT('Axis2P3D Location',(0.,0.,0.)) ;
#56=CARTESIAN_POINT('Line Origine',(50.,0.,400.)) ;
#60=CARTESIAN_POINT('Vertex',(0.,0.,400.)) ;
#62=CARTESIAN_POINT('Vertex',(100.,0.,400.)) ;
#65=CARTESIAN_POINT('Line Origine',(0.,0.,200.)) ;
#69=CARTESIAN_POINT('Vertex',(0.,0.,0.)) ;
#72=CARTESIAN_POINT('Line Origine',(175.,0.,0.)) ;
#76=CARTESIAN_POINT('Vertex',(350.,0.,0.)) ;
#79=CARTESIAN_POINT('Line Origine',(350.,0.,75.)) ;
#83=CARTESIAN_POINT('Vertex',(350.,0.,150.)) ;
#86=CARTESIAN_POINT('Line Origine',(225.,0.,225.)) ;
#90=CARTESIAN_POINT('Vertex',(100.,5.68434188608E-014,300.)) ;
#93=CARTESIAN_POINT('Line Origine',(100.,0.,350.)) ;
#107=CARTESIAN_POINT('Axis2P3D Location',(0.,0.,400.)) ;
#112=CARTESIAN_POINT('Line Origine',(50.,350.,400.)) ;
#116=CARTESIAN_POINT('Vertex',(100.,350.,400.)) ;
#118=CARTESIAN_POINT('Vertex',(0.,350.,400.)) ;
#121=CARTESIAN_POINT('Line Origine',(0.,175.,400.)) ;
#126=CARTESIAN_POINT('Line Origine',(100.,175.,400.)) ;
#138=CARTESIAN_POINT('Axis2P3D Location',(0.,0.,0.)) ;
#143=CARTESIAN_POINT('Line Origine',(0.,175.,0.)) ;
#147=CARTESIAN_POINT('Vertex',(0.,350.,0.)) ;
#150=CARTESIAN_POINT('Line Origine',(175.,350.,0.)) ;
#154=CARTESIAN_POINT('Vertex',(350.,350.,0.)) ;
#157=CARTESIAN_POINT('Line Origine',(350.,175.,0.)) ;
#168=CARTESIAN_POINT('Line Origine',(175.,100.,0.)) ;
#172=CARTESIAN_POINT('Vertex',(100.,100.,0.)) ;
#174=CARTESIAN_POINT('Vertex',(250.,100.,0.)) ;
#177=CARTESIAN_POINT('Line Origine',(250.,175.,0.)) ;
#181=CARTESIAN_POINT('Vertex',(250.,250.,0.)) ;
#184=CARTESIAN_POINT('Line Origine',(175.,250.,0.)) ;
#188=CARTESIAN_POINT('Vertex',(100.,250.,0.)) ;
#191=CARTESIAN_POINT('Line Origine',(100.,175.,0.)) ;
#203=CARTESIAN_POINT('Axis2P3D Location',(350.,0.,0.)) ;
#208=CARTESIAN_POINT('Line Origine',(350.,350.,75.)) ;
#212=CARTESIAN_POINT('Vertex',(350.,350.,150.)) ;
#215=CARTESIAN_POINT('Line Origine',(350.,175.,150.)) ;
#227=CARTESIAN_POINT('Axis2P3D Location',(350.,350.,0.)) ;
#232=CARTESIAN_POINT('Line Origine',(0.,350.,200.)) ;
#237=CARTESIAN_POINT('Line Origine',(100.,350.,350.)) ;
#241=CARTESIAN_POINT('Vertex',(100.,350.,300.)) ;
#244=CARTESIAN_POINT('Line Origine',(225.,350.,225.)) ;
#258=CARTESIAN_POINT('Axis2P3D Location',(250.,250.,0.)) ;
#263=CARTESIAN_POINT('Line Origine',(100.,250.,150.)) ;
#267=CARTESIAN_POINT('Vertex',(100.,250.,300.)) ;
#270=CARTESIAN_POINT('Line Origine',(250.,250.,105.)) ;
#274=CARTESIAN_POINT('Vertex',(250.,250.,210.)) ;
#277=CARTESIAN_POINT('Line Origine',(175.,250.,255.)) ;
#289=CARTESIAN_POINT('Axis2P3D Location',(250.,100.,0.)) ;
#294=CARTESIAN_POINT('Line Origine',(250.,100.,105.)) ;
#298=CARTESIAN_POINT('Vertex',(250.,100.,210.)) ;
#301=CARTESIAN_POINT('Line Origine',(250.,175.,210.)) ;
#313=CARTESIAN_POINT('Axis2P3D Location',(100.,100.,0.)) ;
#318=CARTESIAN_POINT('Line Origine',(100.,100.,150.)) ;
#322=CARTESIAN_POINT('Vertex',(100.,100.,300.)) ;
#325=CARTESIAN_POINT('Line Origine',(175.,100.,255.)) ;
#337=CARTESIAN_POINT('Axis2P3D Location',(0.,350.,0.)) ;
#349=CARTESIAN_POINT('Axis2P3D Location',(350.,350.,150.)) ;
#354=CARTESIAN_POINT('Line Origine',(100.,50.,300.)) ;
#359=CARTESIAN_POINT('Line Origine',(100.,300.,300.)) ;
#375=CARTESIAN_POINT('Axis2P3D Location',(100.,250.,0.)) ;
#52=DIRECTION('Axis2P3D Direction',(0.,-1.,0.)) ;
#53=DIRECTION('Axis2P3D XDirection',(1.,0.,0.)) ;
#57=DIRECTION('Vector Direction',(1.,0.,0.)) ;
#66=DIRECTION('Vector Direction',(0.,0.,1.)) ;
#73=DIRECTION('Vector Direction',(1.,0.,0.)) ;
#80=DIRECTION('Vector Direction',(0.,0.,1.)) ;
#87=DIRECTION('Vector Direction',(-0.857492925713,0.,0.514495755428)) ;
#94=DIRECTION('Vector Direction',(0.,0.,-1.)) ;
#108=DIRECTION('Axis2P3D Direction',(0.,0.,1.)) ;
#109=DIRECTION('Axis2P3D XDirection',(1.,0.,0.)) ;
#113=DIRECTION('Vector Direction',(-1.,0.,0.)) ;
#122=DIRECTION('Vector Direction',(0.,-1.,0.)) ;
#127=DIRECTION('Vector Direction',(0.,-1.,0.)) ;
#139=DIRECTION('Axis2P3D Direction',(0.,0.,1.)) ;
#140=DIRECTION('Axis2P3D XDirection',(1.,0.,0.)) ;
#144=DIRECTION('Vector Direction',(0.,-1.,0.)) ;
#151=DIRECTION('Vector Direction',(-1.,0.,0.)) ;
#158=DIRECTION('Vector Direction',(0.,1.,0.)) ;
#169=DIRECTION('Vector Direction',(1.,0.,0.)) ;
#178=DIRECTION('Vector Direction',(0.,1.,0.)) ;
#185=DIRECTION('Vector Direction',(-1.,0.,0.)) ;
#192=DIRECTION('Vector Direction',(0.,-1.,0.)) ;
#204=DIRECTION('Axis2P3D Direction',(1.,0.,0.)) ;
#205=DIRECTION('Axis2P3D XDirection',(0.,1.,0.)) ;
#209=DIRECTION('Vector Direction',(0.,0.,1.)) ;
#216=DIRECTION('Vector Direction',(0.,-1.,0.)) ;
#228=DIRECTION('Axis2P3D Direction',(0.,1.,-0.)) ;
#229=DIRECTION('Axis2P3D XDirection',(-1.,0.,0.)) ;
#233=DIRECTION('Vector Direction',(0.,0.,1.)) ;
#238=DIRECTION('Vector Direction',(0.,0.,1.)) ;
#245=DIRECTION('Vector Direction',(-0.857492925713,0.,0.514495755428)) ;
#259=DIRECTION('Axis2P3D Direction',(0.,1.,-0.)) ;
#260=DIRECTION('Axis2P3D XDirection',(-1.,0.,0.)) ;
#264=DIRECTION('Vector Direction',(0.,0.,1.)) ;
#271=DIRECTION('Vector Direction',(0.,0.,1.)) ;
#278=DIRECTION('Vector Direction',(0.857492925713,0.,-0.514495755428)) ;
#290=DIRECTION('Axis2P3D Direction',(1.,0.,0.)) ;
#291=DIRECTION('Axis2P3D XDirection',(0.,1.,0.)) ;
#295=DIRECTION('Vector Direction',(0.,0.,1.)) ;
#302=DIRECTION('Vector Direction',(0.,1.,0.)) ;
#314=DIRECTION('Axis2P3D Direction',(0.,-1.,0.)) ;
#315=DIRECTION('Axis2P3D XDirection',(1.,0.,0.)) ;
#319=DIRECTION('Vector Direction',(0.,0.,1.)) ;
#326=DIRECTION('Vector Direction',(0.857492925713,0.,-0.514495755428)) ;
#338=DIRECTION('Axis2P3D Direction',(-1.,0.,0.)) ;
#339=DIRECTION('Axis2P3D XDirection',(0.,-1.,0.)) ;
#350=DIRECTION('Axis2P3D Direction',(0.514495755428,0.,0.857492925713)) ;
#351=DIRECTION('Axis2P3D XDirection',(-0.857492925713,0.,0.514495755428)) ;
#355=DIRECTION('Vector Direction',(0.,-1.,0.)) ;
#360=DIRECTION('Vector Direction',(0.,-1.,0.)) ;
#376=DIRECTION('Axis2P3D Direction',(-1.,0.,0.)) ;
#377=DIRECTION('Axis2P3D XDirection',(0.,-1.,0.)) ;
#47=AXIS2_PLACEMENT_3D(' ',#46,$,$) ;
#54=AXIS2_PLACEMENT_3D('Plane Axis2P3D',#51,#52,#53) ;
#110=AXIS2_PLACEMENT_3D('Plane Axis2P3D',#107,#108,#109) ;
#141=AXIS2_PLACEMENT_3D('Plane Axis2P3D',#138,#139,#140) ;
#206=AXIS2_PLACEMENT_3D('Plane Axis2P3D',#203,#204,#205) ;
#230=AXIS2_PLACEMENT_3D('Plane Axis2P3D',#227,#228,#229) ;
#261=AXIS2_PLACEMENT_3D('Plane Axis2P3D',#258,#259,#260) ;
#292=AXIS2_PLACEMENT_3D('Plane Axis2P3D',#289,#290,#291) ;
#316=AXIS2_PLACEMENT_3D('Plane Axis2P3D',#313,#314,#315) ;
#340=AXIS2_PLACEMENT_3D('Plane Axis2P3D',#337,#338,#339) ;
#352=AXIS2_PLACEMENT_3D('Plane Axis2P3D',#349,#350,#351) ;
#378=AXIS2_PLACEMENT_3D('Plane Axis2P3D',#375,#376,#377) ;
#40=PRODUCT_DEFINITION_SHAPE(' ',' ',#14) ;
#31=APPROVAL_PERSON_ORGANIZATION(#25,#21,#19) ;
#25=PERSON_AND_ORGANIZATION(#22,#23) ;
#22=PERSON(' ',' ',' ',$,$,$) ;
#23=ORGANIZATION(' ',' ',' ') ;
#21=APPROVAL(#20,' ') ;
#20=APPROVAL_STATUS('not_yet_approved') ;
#19=APPROVAL_ROLE('APPROVER') ;
#13=DATE_AND_TIME(#11,#12) ;
#12=LOCAL_TIME(14,18,10.,#10) ;
#10=COORDINATED_UNIVERSAL_TIME_OFFSET(0,0,.AHEAD.) ;
#99=ORIENTED_EDGE('',*,*,#64,.F.) ;
#100=ORIENTED_EDGE('',*,*,#71,.F.) ;
#101=ORIENTED_EDGE('',*,*,#78,.T.) ;
#102=ORIENTED_EDGE('',*,*,#85,.T.) ;
#103=ORIENTED_EDGE('',*,*,#92,.T.) ;
#104=ORIENTED_EDGE('',*,*,#97,.F.) ;
#132=ORIENTED_EDGE('',*,*,#120,.T.) ;
#133=ORIENTED_EDGE('',*,*,#125,.T.) ;
#134=ORIENTED_EDGE('',*,*,#64,.T.) ;
#135=ORIENTED_EDGE('',*,*,#130,.F.) ;
#163=ORIENTED_EDGE('',*,*,#149,.F.) ;
#164=ORIENTED_EDGE('',*,*,#156,.F.) ;
#165=ORIENTED_EDGE('',*,*,#161,.F.) ;
#166=ORIENTED_EDGE('',*,*,#78,.F.) ;
#197=ORIENTED_EDGE('',*,*,#176,.T.) ;
#198=ORIENTED_EDGE('',*,*,#183,.T.) ;
#199=ORIENTED_EDGE('',*,*,#190,.T.) ;
#200=ORIENTED_EDGE('',*,*,#195,.T.) ;
#221=ORIENTED_EDGE('',*,*,#85,.F.) ;
#222=ORIENTED_EDGE('',*,*,#161,.T.) ;
#223=ORIENTED_EDGE('',*,*,#214,.T.) ;
#224=ORIENTED_EDGE('',*,*,#219,.T.) ;
#250=ORIENTED_EDGE('',*,*,#214,.F.) ;
#251=ORIENTED_EDGE('',*,*,#156,.T.) ;
#252=ORIENTED_EDGE('',*,*,#236,.T.) ;
#253=ORIENTED_EDGE('',*,*,#120,.F.) ;
#254=ORIENTED_EDGE('',*,*,#243,.F.) ;
#255=ORIENTED_EDGE('',*,*,#248,.F.) ;
#283=ORIENTED_EDGE('',*,*,#269,.F.) ;
#284=ORIENTED_EDGE('',*,*,#190,.F.) ;
#285=ORIENTED_EDGE('',*,*,#276,.T.) ;
#286=ORIENTED_EDGE('',*,*,#281,.F.) ;
#307=ORIENTED_EDGE('',*,*,#276,.F.) ;
#308=ORIENTED_EDGE('',*,*,#183,.F.) ;
#309=ORIENTED_EDGE('',*,*,#300,.T.) ;
#310=ORIENTED_EDGE('',*,*,#305,.T.) ;
#331=ORIENTED_EDGE('',*,*,#300,.F.) ;
#332=ORIENTED_EDGE('',*,*,#176,.F.) ;
#333=ORIENTED_EDGE('',*,*,#324,.T.) ;
#334=ORIENTED_EDGE('',*,*,#329,.T.) ;
#343=ORIENTED_EDGE('',*,*,#236,.F.) ;
#344=ORIENTED_EDGE('',*,*,#149,.T.) ;
#345=ORIENTED_EDGE('',*,*,#71,.T.) ;
#346=ORIENTED_EDGE('',*,*,#125,.F.) ;
#365=ORIENTED_EDGE('',*,*,#281,.T.) ;
#366=ORIENTED_EDGE('',*,*,#305,.F.) ;
#367=ORIENTED_EDGE('',*,*,#329,.F.) ;
#368=ORIENTED_EDGE('',*,*,#358,.T.) ;
#369=ORIENTED_EDGE('',*,*,#92,.F.) ;
#370=ORIENTED_EDGE('',*,*,#219,.F.) ;
#371=ORIENTED_EDGE('',*,*,#248,.T.) ;
#372=ORIENTED_EDGE('',*,*,#363,.T.) ;
#381=ORIENTED_EDGE('',*,*,#130,.T.) ;
#382=ORIENTED_EDGE('',*,*,#97,.T.) ;
#383=ORIENTED_EDGE('',*,*,#358,.F.) ;
#384=ORIENTED_EDGE('',*,*,#324,.F.) ;
#385=ORIENTED_EDGE('',*,*,#195,.F.) ;
#386=ORIENTED_EDGE('',*,*,#269,.T.) ;
#387=ORIENTED_EDGE('',*,*,#363,.F.) ;
#388=ORIENTED_EDGE('',*,*,#243,.T.) ;
#201=FACE_BOUND('',#196,.T.) ;
#50=CLOSED_SHELL('Closed Shell',(#106,#137,#202,#226,#257,#288,#312,#336,#348,#374,#390)) ;
#58=VECTOR('Line Direction',#57,1.) ;
#67=VECTOR('Line Direction',#66,1.) ;
#74=VECTOR('Line Direction',#73,1.) ;
#81=VECTOR('Line Direction',#80,1.) ;
#88=VECTOR('Line Direction',#87,1.) ;
#95=VECTOR('Line Direction',#94,1.) ;
#114=VECTOR('Line Direction',#113,1.) ;
#123=VECTOR('Line Direction',#122,1.) ;
#128=VECTOR('Line Direction',#127,1.) ;
#145=VECTOR('Line Direction',#144,1.) ;
#152=VECTOR('Line Direction',#151,1.) ;
#159=VECTOR('Line Direction',#158,1.) ;
#170=VECTOR('Line Direction',#169,1.) ;
#179=VECTOR('Line Direction',#178,1.) ;
#186=VECTOR('Line Direction',#185,1.) ;
#193=VECTOR('Line Direction',#192,1.) ;
#210=VECTOR('Line Direction',#209,1.) ;
#217=VECTOR('Line Direction',#216,1.) ;
#234=VECTOR('Line Direction',#233,1.) ;
#239=VECTOR('Line Direction',#238,1.) ;
#246=VECTOR('Line Direction',#245,1.) ;
#265=VECTOR('Line Direction',#264,1.) ;
#272=VECTOR('Line Direction',#271,1.) ;
#279=VECTOR('Line Direction',#278,1.) ;
#296=VECTOR('Line Direction',#295,1.) ;
#303=VECTOR('Line Direction',#302,1.) ;
#320=VECTOR('Line Direction',#319,1.) ;
#327=VECTOR('Line Direction',#326,1.) ;
#356=VECTOR('Line Direction',#355,1.) ;
#361=VECTOR('Line Direction',#360,1.) ;
#392=ADVANCED_BREP_SHAPE_REPRESENTATION('NONE',(#391),#45) ;
#48=SHAPE_REPRESENTATION(' ',(#47),#45) ;
#106=ADVANCED_FACE('Corps principal',(#105),#55,.T.) ;
#137=ADVANCED_FACE('Corps principal',(#136),#111,.T.) ;
#202=ADVANCED_FACE('Corps principal',(#167,#201),#142,.F.) ;
#226=ADVANCED_FACE('Corps principal',(#225),#207,.T.) ;
#257=ADVANCED_FACE('Corps principal',(#256),#231,.T.) ;
#288=ADVANCED_FACE('Corps principal',(#287),#262,.F.) ;
#312=ADVANCED_FACE('Corps principal',(#311),#293,.F.) ;
#336=ADVANCED_FACE('Corps principal',(#335),#317,.F.) ;
#348=ADVANCED_FACE('Corps principal',(#347),#341,.T.) ;
#374=ADVANCED_FACE('Corps principal',(#373),#353,.T.) ;
#390=ADVANCED_FACE('Corps principal',(#389),#379,.F.) ;
#4=APPLICATION_PROTOCOL_DEFINITION('international standard','config_control_design',1994,#1) ;
#32=APPROVAL_DATE_TIME(#13,#21) ;
#391=MANIFOLD_SOLID_BREP('Corps principal',#50) ;
#11=CALENDAR_DATE(2023,16,10) ;
#30=CC_DESIGN_APPROVAL(#21,(#16,#6,#14)) ;
#18=CC_DESIGN_DATE_AND_TIME_ASSIGNMENT(#13,#17,(#16)) ;
#29=CC_DESIGN_DATE_AND_TIME_ASSIGNMENT(#13,#28,(#14)) ;
#17=DATE_TIME_ROLE('classification_date') ;
#28=DATE_TIME_ROLE('creation_date') ;
#27=CC_DESIGN_PERSON_AND_ORGANIZATION_ASSIGNMENT(#25,#26,(#16)) ;
#33=CC_DESIGN_PERSON_AND_ORGANIZATION_ASSIGNMENT(#25,#34,(#6)) ;
#35=CC_DESIGN_PERSON_AND_ORGANIZATION_ASSIGNMENT(#25,#36,(#6,#14)) ;
#37=CC_DESIGN_PERSON_AND_ORGANIZATION_ASSIGNMENT(#25,#38,(#5)) ;
#26=PERSON_AND_ORGANIZATION_ROLE('classification_officer') ;
#34=PERSON_AND_ORGANIZATION_ROLE('design_supplier') ;
#36=PERSON_AND_ORGANIZATION_ROLE('creator') ;
#38=PERSON_AND_ORGANIZATION_ROLE('design_owner') ;
#39=CC_DESIGN_SECURITY_CLASSIFICATION(#16,(#6)) ;
#393=SHAPE_REPRESENTATION_RELATIONSHIP(' ',' ',#48,#392) ;
#3=DESIGN_CONTEXT(' ',#1,'design') ;
#64=EDGE_CURVE('',#61,#63,#59,.T.) ;
#71=EDGE_CURVE('',#70,#61,#68,.T.) ;
#78=EDGE_CURVE('',#70,#77,#75,.T.) ;
#85=EDGE_CURVE('',#77,#84,#82,.T.) ;
#92=EDGE_CURVE('',#84,#91,#89,.T.) ;
#97=EDGE_CURVE('',#63,#91,#96,.T.) ;
#120=EDGE_CURVE('',#117,#119,#115,.T.) ;
#125=EDGE_CURVE('',#119,#61,#124,.T.) ;
#130=EDGE_CURVE('',#117,#63,#129,.T.) ;
#149=EDGE_CURVE('',#148,#70,#146,.T.) ;
#156=EDGE_CURVE('',#155,#148,#153,.T.) ;
#161=EDGE_CURVE('',#77,#155,#160,.T.) ;
#176=EDGE_CURVE('',#173,#175,#171,.T.) ;
#183=EDGE_CURVE('',#175,#182,#180,.T.) ;
#190=EDGE_CURVE('',#182,#189,#187,.T.) ;
#195=EDGE_CURVE('',#189,#173,#194,.T.) ;
#214=EDGE_CURVE('',#155,#213,#211,.T.) ;
#219=EDGE_CURVE('',#213,#84,#218,.T.) ;
#236=EDGE_CURVE('',#148,#119,#235,.T.) ;
#243=EDGE_CURVE('',#242,#117,#240,.T.) ;
#248=EDGE_CURVE('',#213,#242,#247,.T.) ;
#269=EDGE_CURVE('',#189,#268,#266,.T.) ;
#276=EDGE_CURVE('',#182,#275,#273,.T.) ;
#281=EDGE_CURVE('',#268,#275,#280,.T.) ;
#300=EDGE_CURVE('',#175,#299,#297,.T.) ;
#305=EDGE_CURVE('',#299,#275,#304,.T.) ;
#324=EDGE_CURVE('',#173,#323,#321,.T.) ;
#329=EDGE_CURVE('',#323,#299,#328,.T.) ;
#358=EDGE_CURVE('',#323,#91,#357,.T.) ;
#363=EDGE_CURVE('',#242,#268,#362,.T.) ;
#98=EDGE_LOOP('',(#99,#100,#101,#102,#103,#104)) ;
#131=EDGE_LOOP('',(#132,#133,#134,#135)) ;
#162=EDGE_LOOP('',(#163,#164,#165,#166)) ;
#196=EDGE_LOOP('',(#197,#198,#199,#200)) ;
#220=EDGE_LOOP('',(#221,#222,#223,#224)) ;
#249=EDGE_LOOP('',(#250,#251,#252,#253,#254,#255)) ;
#282=EDGE_LOOP('',(#283,#284,#285,#286)) ;
#306=EDGE_LOOP('',(#307,#308,#309,#310)) ;
#330=EDGE_LOOP('',(#331,#332,#333,#334)) ;
#342=EDGE_LOOP('',(#343,#344,#345,#346)) ;
#364=EDGE_LOOP('',(#365,#366,#367,#368,#369,#370,#371,#372)) ;
#380=EDGE_LOOP('',(#381,#382,#383,#384,#385,#386,#387,#388)) ;
#105=FACE_OUTER_BOUND('',#98,.T.) ;
#136=FACE_OUTER_BOUND('',#131,.T.) ;
#167=FACE_OUTER_BOUND('',#162,.T.) ;
#225=FACE_OUTER_BOUND('',#220,.T.) ;
#256=FACE_OUTER_BOUND('',#249,.T.) ;
#287=FACE_OUTER_BOUND('',#282,.T.) ;
#311=FACE_OUTER_BOUND('',#306,.T.) ;
#335=FACE_OUTER_BOUND('',#330,.T.) ;
#347=FACE_OUTER_BOUND('',#342,.T.) ;
#373=FACE_OUTER_BOUND('',#364,.T.) ;
#389=FACE_OUTER_BOUND('',#380,.T.) ;
#44=UNCERTAINTY_MEASURE_WITH_UNIT(LENGTH_MEASURE(0.005),#41,'distance_accuracy_value','CONFUSED CURVE UNCERTAINTY') ;
#59=LINE('Line',#56,#58) ;
#68=LINE('Line',#65,#67) ;
#75=LINE('Line',#72,#74) ;
#82=LINE('Line',#79,#81) ;
#89=LINE('Line',#86,#88) ;
#96=LINE('Line',#93,#95) ;
#115=LINE('Line',#112,#114) ;
#124=LINE('Line',#121,#123) ;
#129=LINE('Line',#126,#128) ;
#146=LINE('Line',#143,#145) ;
#153=LINE('Line',#150,#152) ;
#160=LINE('Line',#157,#159) ;
#171=LINE('Line',#168,#170) ;
#180=LINE('Line',#177,#179) ;
#187=LINE('Line',#184,#186) ;
#194=LINE('Line',#191,#193) ;
#211=LINE('Line',#208,#210) ;
#218=LINE('Line',#215,#217) ;
#235=LINE('Line',#232,#234) ;
#240=LINE('Line',#237,#239) ;
#247=LINE('Line',#244,#246) ;
#266=LINE('Line',#263,#265) ;
#273=LINE('Line',#270,#272) ;
#280=LINE('Line',#277,#279) ;
#297=LINE('Line',#294,#296) ;
#304=LINE('Line',#301,#303) ;
#321=LINE('Line',#318,#320) ;
#328=LINE('Line',#325,#327) ;
#357=LINE('Line',#354,#356) ;
#362=LINE('Line',#359,#361) ;
#2=MECHANICAL_CONTEXT(' ',#1,'mechanical') ;
#24=PERSONAL_ADDRESS(' ',' ',' ',' ',' ',' ',' ',' ',' ',' ',' ',' ',(#22),' ') ;
#55=PLANE('',#54) ;
#111=PLANE('',#110) ;
#142=PLANE('',#141) ;
#207=PLANE('',#206) ;
#231=PLANE('',#230) ;
#262=PLANE('',#261) ;
#293=PLANE('',#292) ;
#317=PLANE('',#316) ;
#341=PLANE('',#340) ;
#353=PLANE('',#352) ;
#379=PLANE('',#378) ;
#7=PRODUCT_CATEGORY('part',$) ;
#9=PRODUCT_CATEGORY_RELATIONSHIP(' ',' ',#7,#8) ;
#6=PRODUCT_DEFINITION_FORMATION_WITH_SPECIFIED_SOURCE('',' ',#5,.NOT_KNOWN.) ;
#8=PRODUCT_RELATED_PRODUCT_CATEGORY('detail',$,(#5)) ;
#49=SHAPE_DEFINITION_REPRESENTATION(#40,#48) ;
#61=VERTEX_POINT('',#60) ;
#63=VERTEX_POINT('',#62) ;
#70=VERTEX_POINT('',#69) ;
#77=VERTEX_POINT('',#76) ;
#84=VERTEX_POINT('',#83) ;
#91=VERTEX_POINT('',#90) ;
#117=VERTEX_POINT('',#116) ;
#119=VERTEX_POINT('',#118) ;
#148=VERTEX_POINT('',#147) ;
#155=VERTEX_POINT('',#154) ;
#173=VERTEX_POINT('',#172) ;
#175=VERTEX_POINT('',#174) ;
#182=VERTEX_POINT('',#181) ;
#189=VERTEX_POINT('',#188) ;
#213=VERTEX_POINT('',#212) ;
#242=VERTEX_POINT('',#241) ;
#268=VERTEX_POINT('',#267) ;
#275=VERTEX_POINT('',#274) ;
#299=VERTEX_POINT('',#298) ;
#323=VERTEX_POINT('',#322) ;
#41=(LENGTH_UNIT()NAMED_UNIT(*)SI_UNIT(.MILLI.,.METRE.)) ;
#42=(NAMED_UNIT(*)PLANE_ANGLE_UNIT()SI_UNIT($,.RADIAN.)) ;
#43=(NAMED_UNIT(*)SI_UNIT($,.STERADIAN.)SOLID_ANGLE_UNIT()) ;
#45=(GEOMETRIC_REPRESENTATION_CONTEXT(3)GLOBAL_UNCERTAINTY_ASSIGNED_CONTEXT((#44))GLOBAL_UNIT_ASSIGNED_CONTEXT((#41,#42,#43))REPRESENTATION_CONTEXT(' ',' ')) ;
ENDSEC;
END-ISO-10303-21;
